This Is Gospel Tab: Een Gids voor het Spelen van Dit Iconische Nummer

Als je een fan bent van Panic! at the Disco, dan ben je waarschijnlijk bekend met hun hitnummer “This Is Gospel”. Dit nummer, afkomstig van hun album “Too Weird to Live, Too Rare to Die!” uit 2013, is een favoriet onder fans vanwege de krachtige teksten en de energieke muziek. Als je dit nummer wilt leren spelen op gitaar, dan ben je hier aan het juiste adres. In dit artikel zullen we een gedetailleerde gids geven over het spelen van “This Is Gospel” met behulp van gitaartabs.

Wat zijn gitaartabs?

Gitaartabs, ook wel bekend als tabulatuur, zijn een notatiesysteem dat specifiek is ontworpen voor gitaar. In plaats van traditionele muzieknoten, gebruiken tabs cijfers en symbolen om aan te geven welke snaren en frets je moet spelen. Dit maakt het veel gemakkelijker voor beginners om nummers te leren spelen, omdat je geen kennis van muzieknoten nodig hebt.

This Is Gospel Tab

Hier is de gitaartab voor het intro van “This Is Gospel”:

e|--------------------------------------------------|
B|--------------------------------------------------|
G|--------------------------------------------------|
D|--------------------------------------------------|
A|---3-3-3-3-3-3-3-3-3-3-3-3-3-3-3-3-3-3-3-3-3-3-3--|
E|-1-1-1-1-1-1-1-1-1-1-1-1-1-1-1-1-1-1-1-1-1-1-1-1--|

Om dit te spelen, plaats je je vingers op de derde fret van de A-snaar en de eerste fret van de E-snaar. Pluk vervolgens beide snaren tegelijkertijd met je duim en wijsvinger. Herhaal dit patroon gedurende het hele intro van het nummer.

De volgende tab is voor het couplet van “This Is Gospel”:

e|--------------------------------------------------|
B|--------------------------------------------------|
G|--------------------------------------------------|
D|---3-3-3-3-3-3-3-3-3-3-3-3-3-3-3-3-3-3-3-3-3-3-3--|
A|---3-3-3-3-3-3-3-3-3-3-3-3-3-3-3-3-3-3-3-3-3-3-3--|
E|-1-1-1-1-1-1-1-1-1-1-1-1-1-1-1-1-1-1-1-1-1-1-1-1--|

Om dit couplet te spelen, plaats je je vingers op de derde fret van de D- en A-snaar, en de eerste fret van de E-snaar. Pluk de D- en A-snaar tegelijkertijd met je duim en wijsvinger, en pluk de E-snaar met je duim. Herhaal dit patroon gedurende het couplet.

De volgende tab is voor het refrein van “This Is Gospel”:

e|--------------------------------------------------|
B|--------------------------------------------------|
G|---5-5-5-5-5-5-5-5-5-5-5-5-5-5-5-5-5-5-5-5-5-5-5--|
D|---5-5-5-5-5-5-5-5-5-5-5-5-5-5-5-5-5-5-5-5-5-5-5--|
A|---3-3-3-3-3-3-3-3-3-3-3-3-3-3-3-3-3-3-3-3-3-3-3--|
E|--------------------------------------------------|

Om het refrein te spelen, plaats je je vingers op de derde fret van de A- en D-snaar, en de vijfde fret van de G-snaar. Pluk de G-, D- en A-snaar tegelijkertijd met je duim, wijs- en middelvinger. Herhaal dit patroon gedurende het refrein.

Tips voor het spelen van “This Is Gospel”

Hier zijn enkele tips om je te helpen bij het spelen van “This Is Gospel” op de gitaar:

  • Oefen langzaam: Begin met het spelen van het nummer op een langzaam tempo en verhoog geleidelijk de snelheid naarmate je comfortabeler wordt.
  • Let op je vingerplaatsing: Zorg ervoor dat je je vingers op de juiste frets plaatst en dat je de snaren goed indrukt om heldere tonen te krijgen.
  • Luister naar het nummer: Luister goed naar het originele nummer terwijl je oefent, zodat je de timing en het ritme beter kunt begrijpen.
  • Experimenteer met akkoorden: Als je meer gevorderd bent, kun je proberen akkoorden toe te voegen aan het nummer om het nog voller te laten klinken.

Met deze gitaartabs en tips zou je goed op weg moeten zijn om “This Is Gospel” te leren spelen op de gitaar. Blijf oefenen en geniet van het proces. Veel succes!

Plaats een reactie